  0
SECTION
  2
HEADER
  9
$ACADVER
  1
AC1018
  9
$ACADMAINTVER
 70
     0
  9
$DWGCODEPAGE
  3
ANSI_1252
  9
$INSBASE
 10
-27121.94211744196
 20
-11722.09675876793
 30
0.0
  9
$EXTMIN
 10
-27390.73235925064
 20
-11932.81678056147
 30
0.0
  9
$EXTMAX
 10
-26991.74036440279
 20
-11536.00105301722
 30
0.0
  9
$LIMMIN
 10
0.0
 20
0.0
  9
$LIMMAX
 10
420.0
 20
297.0
  9
$ORTHOMODE
 70
     1
  9
$REGENMODE
 70
     1
  9
$FILLMODE
 70
     1
  9
$QTEXTMODE
 70
     0
  9
$MIRRTEXT
 70
     0
  9
$LTSCALE
 40
1.0
  9
$ATTMODE
 70
     1
  9
$TEXTSIZE
 40
8.603662667082971
  9
$TRACEWID
 40
1.0
  9
$TEXTSTYLE
  7
Standard
  9
$CLAYER
  8
www.archlounge.com Layer 01
  9
$CELTYPE
  6
ByLayer
  9
$CECOLOR
 62
   256
  9
$CELTSCALE
 40
1.0
  9
$DISPSILH
 70
     0
  9
$DIMSCALE
 40
1.0
  9
$DIMASZ
 40
2.5
  9
$DIMEXO
 40
0.625
  9
$DIMDLI
 40
3.75
  9
$DIMRND
 40
0.0
  9
$DIMDLE
 40
0.0
  9
$DIMEXE
 40
1.25
  9
$DIMTP
 40
0.0
  9
$DIMTM
 40
0.0
  9
$DIMTXT
 40
2.5
  9
$DIMCEN
 40
2.5
  9
$DIMTSZ
 40
0.0
  9
$DIMTOL
 70
     0
  9
$DIMLIM
 70
     0
  9
$DIMTIH
 70
     0
  9
$DIMTOH
 70
     0
  9
$DIMSE1
 70
     0
  9
$DIMSE2
 70
     0
  9
$DIMTAD
 70
     1
  9
$DIMZIN
 70
     8
  9
$DIMBLK
  1

  9
$DIMASO
 70
     1
  9
$DIMSHO
 70
     1
  9
$DIMPOST
  1

  9
$DIMAPOST
  1

  9
$DIMALT
 70
     0
  9
$DIMALTD
 70
     3
  9
$DIMALTF
 40
0.03937007874016
  9
$DIMLFAC
 40
1.0
  9
$DIMTOFL
 70
     1
  9
$DIMTVP
 40
0.0
  9
$DIMTIX
 70
     0
  9
$DIMSOXD
 70
     0
  9
$DIMSAH
 70
     0
  9
$DIMBLK1
  1

  9
$DIMBLK2
  1

  9
$DIMSTYLE
  2
ISO-25
  9
$DIMCLRD
 70
     0
  9
$DIMCLRE
 70
     0
  9
$DIMCLRT
 70
     0
  9
$DIMTFAC
 40
1.0
  9
$DIMGAP
 40
0.625
  9
$DIMJUST
 70
     0
  9
$DIMSD1
 70
     0
  9
$DIMSD2
 70
     0
  9
$DIMTOLJ
 70
     0
  9
$DIMTZIN
 70
     8
  9
$DIMALTZ
 70
     0
  9
$DIMALTTZ
 70
     0
  9
$DIMUPT
 70
     0
  9
$DIMDEC
 70
     2
  9
$DIMTDEC
 70
     2
  9
$DIMALTU
 70
     2
  9
$DIMALTTD
 70
     3
  9
$DIMTXSTY
  7
Standard
  9
$DIMAUNIT
 70
     0
  9
$DIMADEC
 70
     0
  9
$DIMALTRND
 40
0.0
  9
$DIMAZIN
 70
     0
  9
$DIMDSEP
 70
    44
  9
$DIMATFIT
 70
     3
  9
$DIMFRAC
 70
     0
  9
$DIMLDRBLK
  1

  9
$DIMLUNIT
 70
     2
  9
$DIMLWD
 70
    -2
  9
$DIMLWE
 70
    -2
  9
$DIMTMOVE
 70
     0
  9
$LUNITS
 70
     2
  9
$LUPREC
 70
     4
  9
$SKETCHINC
 40
1.0
  9
$FILLETRAD
 40
0.0
  9
$AUNITS
 70
     0
  9
$AUPREC
 70
     0
  9
$MENU
  1
.
  9
$ELEVATION
 40
0.0
  9
$PELEVATION
 40
0.0
  9
$THICKNESS
 40
0.0
  9
$LIMCHECK
 70
     0
  9
$CHAMFERA
 40
10.0
  9
$CHAMFERB
 40
10.0
  9
$CHAMFERC
 40
20.0
  9
$CHAMFERD
 40
0.0
  9
$SKPOLY
 70
     0
  9
$TDCREATE
 40
2453991.448553773
  9
$TDUCREATE
 40
2453991.406887107
  9
$TDUPDATE
 40
2454456.382831481
  9
$TDUUPDATE
 40
2454456.341164815
  9
$TDINDWG
 40
19.8902635648
  9
$TDUSRTIMER
 40
19.8902635648
  9
$USRTIMER
 70
     1
  9
$ANGBASE
 50
0.0
  9
$ANGDIR
 70
     0
  9
$PDMODE
 70
     0
  9
$PDSIZE
 40
0.0
  9
$PLINEWID
 40
0.0
  9
$SPLFRAME
 70
     0
  9
$SPLINETYPE
 70
     6
  9
$SPLINESEGS
 70
     8
  9
$HANDSEED
  5
111
  9
$SURFTAB1
 70
     6
  9
$SURFTAB2
 70
     6
  9
$SURFTYPE
 70
     6
  9
$SURFU
 70
     6
  9
$SURFV
 70
     6
  9
$UCSBASE
  2

  9
$UCSNAME
  2

  9
$UCSORG
 10
0.0
 20
0.0
 30
0.0
  9
$UCSXDIR
 10
1.0
 20
0.0
 30
0.0
  9
$UCSYDIR
 10
0.0
 20
1.0
 30
0.0
  9
$UCSORTHOREF
  2

  9
$UCSORTHOVIEW
 70
     0
  9
$UCSORGTOP
 10
0.0
 20
0.0
 30
0.0
  9
$UCSORGBOTTOM
 10
0.0
 20
0.0
 30
0.0
  9
$UCSORGLEFT
 10
0.0
 20
0.0
 30
0.0
  9
$UCSORGRIGHT
 10
0.0
 20
0.0
 30
0.0
  9
$UCSORGFRONT
 10
0.0
 20
0.0
 30
0.0
  9
$UCSORGBACK
 10
0.0
 20
0.0
 30
0.0
  9
$PUCSBASE
  2

  9
$PUCSNAME
  2

  9
$PUCSORG
 10
0.0
 20
0.0
 30
0.0
  9
$PUCSXDIR
 10
1.0
 20
0.0
 30
0.0
  9
$PUCSYDIR
 10
0.0
 20
1.0
 30
0.0
  9
$PUCSORTHOREF
  2

  9
$PUCSORTHOVIEW
 70
     0
  9
$PUCSORGTOP
 10
0.0
 20
0.0
 30
0.0
  9
$PUCSORGBOTTOM
 10
0.0
 20
0.0
 30
0.0
  9
$PUCSORGLEFT
 10
0.0
 20
0.0
 30
0.0
  9
$PUCSORGRIGHT
 10
0.0
 20
0.0
 30
0.0
  9
$PUCSORGFRONT
 10
0.0
 20
0.0
 30
0.0
  9
$PUCSORGBACK
 10
0.0
 20
0.0
 30
0.0
  9
$USERI1
 70
     0
  9
$USERI2
 70
     0
  9
$USERI3
 70
     0
  9
$USERI4
 70
     0
  9
$USERI5
 70
     0
  9
$USERR1
 40
0.0
  9
$USERR2
 40
0.0
  9
$USERR3
 40
0.0
  9
$USERR4
 40
0.0
  9
$USERR5
 40
0.0
  9
$WORLDVIEW
 70
     1
  9
$SHADEDGE
 70
     3
  9
$SHADEDIF
 70
    70
  9
$TILEMODE
 70
     1
  9
$MAXACTVP
 70
    64
  9
$PINSBASE
 10
0.0
 20
0.0
 30
0.0
  9
$PLIMCHECK
 70
     0
  9
$PEXTMIN
 10
26.66999878883363
 20
20.31999878883363
 30
0.0
  9
$PEXTMAX
 10
240.0299890995026
 20
182.8799890995025
 30
0.0
  9
$PLIMMIN
 10
-6.350006103515625
 20
-6.349999904632568
  9
$PLIMMAX
 10
273.0499877929688
 20
209.5499939918518
  9
$UNITMODE
 70
     0
  9
$VISRETAIN
 70
     1
  9
$PLINEGEN
 70
     0
  9
$PSLTSCALE
 70
     1
  9
$TREEDEPTH
 70
  3020
  9
$CMLSTYLE
  2
Standard
  9
$CMLJUST
 70
     0
  9
$CMLSCALE
 40
20.0
  9
$PROXYGRAPHICS
 70
     1
  9
$MEASUREMENT
 70
     1
  9
$CELWEIGHT
370
    -1
  9
$ENDCAPS
280
     0
  9
$JOINSTYLE
280
     0
  9
$LWDISPLAY
290
     0
  9
$INSUNITS
 70
     6
  9
$HYPERLINKBASE
  1

  9
$STYLESHEET
  1

  9
$XEDIT
290
     1
  9
$CEPSNTYPE
380
     0
  9
$PSTYLEMODE
290
     1
  9
$FINGERPRINTGUID
  2
{FDEAD578-A652-11D2-9A35-0060089B3A3F}
  9
$VERSIONGUID
  2
{6BD452DD-398F-4DC3-95A5-A9167077C05D}
  9
$EXTNAMES
290
     1
  9
$PSVPSCALE
 40
0.0
  9
$OLESTARTUP
290
     0
  9
$SORTENTS
280
   127
  9
$INDEXCTL
280
     0
  9
$HIDETEXT
280
     1
  9
$XCLIPFRAME
290
     0
  9
$HALOGAP
280
     0
  9
$OBSCOLOR
 70
   257
  9
$OBSLTYPE
280
     0
  9
$INTERSECTIONDISPLAY
280
     0
  9
$INTERSECTIONCOLOR
 70
   257
  9
$DIMASSOC
280
     2
  9
$PROJECTNAME
  1

  0
ENDSEC
  0
SECTION
  2
CLASSES
  0
CLASS
  1
ACDBDICTIONARYWDFLT
  2
AcDbDictionaryWithDefault
  3
ObjectDBX Classes
 90
        0
 91
        1
280
     0
281
     0
  0
CLASS
  1
DICTIONARYVAR
  2
AcDbDictionaryVar
  3
ObjectDBX Classes
 90
        0
 91
        0
280
     0
281
     0
  0
CLASS
  1
IMAGE
  2
AcDbRasterImage
  3
ISM
 90
      127
 91
        0
280
     0
281
     1
  0
CLASS
  1
IMAGEDEF_REACTOR
  2
AcDbRasterImageDefReactor
  3
ISM
 90
        1
 91
        0
280
     0
281
     0
  0
CLASS
  1
SORTENTSTABLE
  2
AcDbSortentsTable
  3
ObjectDBX Classes
 90
        0
 91
        1
280
     0
281
     0
  0
CLASS
  1
IMAGEDEF
  2
AcDbRasterImageDef
  3
ISM
 90
        0
 91
        0
280
     0
281
     0
  0
CLASS
  1
RASTERVARIABLES
  2
AcDbRasterVariables
  3
ISM
 90
        0
 91
        0
280
     0
281
     0
  0
CLASS
  1
MATERIAL
  2
AcDbMaterial
  3
ObjectDBX Classes
 90
        0
 91
        0
280
     0
281
     0
  0
ENDSEC
  0
SECTION
  2
TABLES
  0
TABLE
  2
VPORT
  5
1F
330
0
100
AcDbSymbolTable
 70
     1
  0
VPORT
  5
20
330
1F
100
AcDbSymbolTableRecord
100
AcDbViewportTableRecord
  2
*Active
 70
     0
 10
0.0
 20
0.0
 11
1.0
 21
1.0
 12
-27114.73201210815
 22
-11717.26930747763
 13
0.0
 23
0.0
 14
10.0
 24
10.0
 15
10.0
 25
10.0
 16
0.0
 26
0.0
 36
1.0
 17
0.0
 27
0.0
 37
0.0
 40
16.79672880905855
 41
1.836456558773424
 42
50.0
 43
0.0
 44
0.0
 50
0.0
 51
0.0
 71
     0
 72
  1000
 73
     1
 74
     3
 75
     0
 76
     0
 77
     0
 78
     0
281
     0
 65
     1
110
0.0
120
0.0
130
0.0
111
1.0
121
0.0
131
0.0
112
0.0
122
1.0
132
0.0
 79
     0
146
0.0
  0
ENDTAB
  0
TABLE
  2
LTYPE
  5
1A
330
0
100
AcDbSymbolTable
 70
     1
  0
LTYPE
  5
1B
330
1A
100
AcDbSymbolTableRecord
100
AcDbLinetypeTableRecord
  2
ByBlock
 70
     0
  3

 72
    65
 73
     0
 40
0.0
  0
LTYPE
  5
1C
330
1A
100
AcDbSymbolTableRecord
100
AcDbLinetypeTableRecord
  2
ByLayer
 70
     0
  3

 72
    65
 73
     0
 40
0.0
  0
LTYPE
  5
A
330
1A
100
AcDbSymbolTableRecord
100
AcDbLinetypeTableRecord
  2
Continuous
 70
     0
  3
Solid line
 72
    65
 73
     0
 40
0.0
  0
ENDTAB
  0
TABLE
  2
LAYER
  5
12
102
{ACAD_XDICTIONARY
360
13
102
}
330
0
100
AcDbSymbolTable
 70
     2
  0
LAYER
  5
6
330
12
100
AcDbSymbolTableRecord
100
AcDbLayerTableRecord
  2
0
 70
     0
 62
     7
  6
Continuous
290
     0
370
    -3
390
7
  0
LAYER
  5
29
330
12
100
AcDbSymbolTableRecord
100
AcDbLayerTableRecord
  2
www.archlounge.com Layer 01
 70
     0
 62
     1
  6
Continuous
370
    -3
390
7
  0
ENDTAB
  0
TABLE
  2
STYLE
  5
16
330
0
100
AcDbSymbolTable
 70
     1
  0
STYLE
  5
17
330
16
100
AcDbSymbolTableRecord
100
AcDbTextStyleTableRecord
  2
Standard
 70
     0
 40
0.0
 41
1.0
 50
0.0
 71
     0
 42
8.603662667082971
  3
verdana.TTF
  4

1001
ACAD
1000
Verdana
1071
       34
  0
ENDTAB
  0
TABLE
  2
VIEW
  5
1D
330
0
100
AcDbSymbolTable
 70
     0
  0
ENDTAB
  0
TABLE
  2
UCS
  5
1E
330
0
100
AcDbSymbolTable
 70
     0
  0
ENDTAB
  0
TABLE
  2
APPID
  5
21
330
0
100
AcDbSymbolTable
 70
     1
  0
APPID
  5
18
330
21
100
AcDbSymbolTableRecord
100
AcDbRegAppTableRecord
  2
ACAD
 70
     0
  0
ENDTAB
  0
TABLE
  2
DIMSTYLE
  5
22
330
0
100
AcDbSymbolTable
 70
     1
100
AcDbDimStyleTable
 71
     0
  0
DIMSTYLE
105
2B
330
22
100
AcDbSymbolTableRecord
100
AcDbDimStyleTableRecord
  2
ISO-25
 70
     0
 41
2.5
 42
0.625
 43
3.75
 44
1.25
 73
     0
 74
     0
 77
     1
 78
     8
140
2.5
141
2.5
143
0.03937007874016
147
0.625
171
     3
172
     1
271
     2
272
     2
274
     3
278
    44
283
     0
284
     8
340
17
  0
ENDTAB
  0
TABLE
  2
BLOCK_RECORD
  5
1
330
0
100
AcDbSymbolTable
 70
     1
  0
BLOCK_RECORD
  5
2
102
{ACAD_XDICTIONARY
360
3
102
}
330
1
100
AcDbSymbolTableRecord
100
AcDbBlockTableRecord
  2
*Model_Space
340
C
  0
BLOCK_RECORD
  5
E
330
1
100
AcDbSymbolTableRecord
100
AcDbBlockTableRecord
  2
*Paper_Space
340
11
  0
BLOCK_RECORD
  5
2D
330
1
100
AcDbSymbolTableRecord
100
AcDbBlockTableRecord
  2
www.archlounge.com_fahr.0054.dxf
340
0
310
2800000020000000200000000100080000000000000400000000000000000000000000000000000000000000000080000080000000808000800000008000800080800000C0C0C000C0DCC000F0CAA6000020400000206000002080000020A0000020C0000020E00000400000004020000040400000406000004080000040A0
310
000040C0000040E00000600000006020000060400000606000006080000060A0000060C0000060E00000800000008020000080400000806000008080000080A0000080C0000080E00000A0000000A0200000A0400000A0600000A0800000A0A00000A0C00000A0E00000C0000000C0200000C0400000C0600000C0800000C0
310
A00000C0C00000C0E00000E0000000E0200000E0400000E0600000E0800000E0A00000E0C00000E0E00040000000400020004000400040006000400080004000A0004000C0004000E00040200000402020004020400040206000402080004020A0004020C0004020E000404000004040200040404000404060004040800040
310
40A0004040C0004040E00040600000406020004060400040606000406080004060A0004060C0004060E00040800000408020004080400040806000408080004080A0004080C0004080E00040A0000040A0200040A0400040A0600040A0800040A0A00040A0C00040A0E00040C0000040C0200040C0400040C0600040C08000
310
40C0A00040C0C00040C0E00040E0000040E0200040E0400040E0600040E0800040E0A00040E0C00040E0E00080000000800020008000400080006000800080008000A0008000C0008000E00080200000802020008020400080206000802080008020A0008020C0008020E00080400000804020008040400080406000804080
310
008040A0008040C0008040E00080600000806020008060400080606000806080008060A0008060C0008060E00080800000808020008080400080806000808080008080A0008080C0008080E00080A0000080A0200080A0400080A0600080A0800080A0A00080A0C00080A0E00080C0000080C0200080C0400080C0600080C0
310
800080C0A00080C0C00080C0E00080E0000080E0200080E0400080E0600080E0800080E0A00080E0C00080E0E000C0000000C0002000C0004000C0006000C0008000C000A000C000C000C000E000C0200000C0202000C0204000C0206000C0208000C020A000C020C000C020E000C0400000C0402000C0404000C0406000C0
310
408000C040A000C040C000C040E000C0600000C0602000C0604000C0606000C0608000C060A000C060C000C060E000C0800000C0802000C0804000C0806000C0808000C080A000C080C000C080E000C0A00000C0A02000C0A04000C0A06000C0A08000C0A0A000C0A0C000C0A0E000C0C00000C0C02000C0C04000C0C06000
310
C0C08000C0C0A000F0FBFF00A4A0A000808080000000FF0000FF000000FFFF00FF000000FF00FF00FFFF0000FFFFFF0000000000000000000000000000000000000000000000000000000000000000000000000000000000000000000000000000000000000000000000000000000000000000000000000000000000000000
310
00000000000000000000000000000000000000000000000000000000000000000000000000000000000000000000000000000000000000000000000000000000000000000000000000000000000000000000000000000000000000000000000000000000000000000000000000000000000000000000000000000000000000
310
00000000000000000000000000000000000000000000000000000000000000000000000000000000000000000000000000000000000000000000000000000000000000000000000000000000000000000000000000000000000000000000000000000000000000000000000000000000000000000000000000000000000000
310
000000000000000000000000000000000000000000000000000000000000000000000000000000000000000000000000000000000000000000F900F900F9000000000000000000F900F9F9F9F9F9F9F9F900000000F9F9F9F9F9F9F9F9F9F9F9F9F9F9F9F9F9F9F9F9F9000000F9F9F9F9F90000F9F9F9F9F9F9F9F9F9F9F9
310
F9F9F9F9F9F9F9F9F9F9F9F9F9F9F9F9F9F9F90000F900000000000000000000000000000000000000000000F9F9F9F9F9F9F90000F900000000000000000000000000000000000000000000F9F9F9F9F9F9F90000F900000000000000000000000000000000000000000000F9F9F9F9F9F9000000F9000000000000000000
310
00000000000000000000000000F9F9F9F9F900000000F9F9F9F9F9F9F9F9F9F9F9F9F9F9F9F9F9F9F9F9F9F9F9F9F9F900000000000000000000000000000000000000000000000000000000000000000000000000000000000000000000000000000000000000000000000000000000000000000000000000000000000000
310
00000000000000000000000000000000000000000000000000000000000000000000000000000000000000000000000000000000000000000000000000000000000000000000000000000000000000000000000000000000000000000000000000000000000000000000000000000000000000000000000000000000000000
310
00000000000000000000000000000000000000000000000000000000000000000000000000000000000000000000000000000000000000000000000000000000000000000000000000000000000000000000000000000000000000000000000000000000000000000000000000000000000000000000000000000000000000
310
0000000000000000000000000000000000000000000000000000000000000000000000000000000000000000000000000000000000000000
102
{BLKREFS
331
2C
102
}
1001
ACAD
1000
DesignCenter Data
1002
{
1070
     1
1070
     6
1002
}
  0
ENDTAB
  0
ENDSEC
  0
SECTION
  2
BLOCKS
  0
BLOCK
  5
5
330
2
100
AcDbEntity
  8
0
100
AcDbBlockBegin
  2
*Model_Space
 70
     0
 10
0.0
 20
0.0
 30
0.0
  3
*Model_Space
  1

  0
ENDBLK
  5
B
330
2
100
AcDbEntity
  8
0
100
AcDbBlockEnd
  0
BLOCK
  5
F
330
E
100
AcDbEntity
 67
     1
  8
0
100
AcDbBlockBegin
  2
*Paper_Space
 70
     0
 10
0.0
 20
0.0
 30
0.0
  3
*Paper_Space
  1

  0
ENDBLK
  5
10
330
E
100
AcDbEntity
 67
     1
  8
0
100
AcDbBlockEnd
  0
BLOCK
  5
2E
330
2D
100
AcDbEntity
  8
0
100
AcDbBlockBegin
  2
www.archlounge.com_fahr.0054.dxf
 70
     0
 10
0.0
 20
0.0
 30
0.0
  3
www.archlounge.com_fahr.0054.dxf
  1

  0
CIRCLE
  5
2F
330
2D
100
AcDbEntity
  8
www.archlounge.com Layer 01
100
AcDbCircle
 10
11.16588843364661
 20
0.4509077696930035
 30
0.0
 40
0.308384434044402
  0
CIRCLE
  5
30
330
2D
100
AcDbEntity
  8
www.archlounge.com Layer 01
100
AcDbCircle
 10
11.16588843364661
 20
0.4509077696930035
 30
0.0
 40
0.4509077696932791
  0
LINE
  5
31
330
2D
100
AcDbEntity
  8
www.archlounge.com Layer 01
100
AcDbLine
 10
10.58428225712851
 20
0.1923536080448684
 30
0.0
 11
10.60024533308024
 21
0.3253065160843107
 31
0.0
  0
LINE
  5
32
330
2D
100
AcDbEntity
  8
www.archlounge.com Layer 01
100
AcDbLine
 10
10.60024533308024
 20
0.3253065160843107
 30
0.0
 11
10.60557406444786
 21
0.5539882873708848
 31
0.0
  0
LINE
  5
33
330
2D
100
AcDbEntity
  8
www.archlounge.com Layer 01
100
AcDbLine
 10
10.60557406444786
 20
0.5539882873708848
 30
0.0
 11
10.62952445791597
 21
0.7294838600628282
 31
0.0
  0
LINE
  5
34
330
2D
100
AcDbEntity
  8
www.archlounge.com Layer 01
100
AcDbLine
 10
10.62952445791597
 20
0.7294838600628282
 30
0.0
 11
10.68540100329482
 21
0.8624367681022704
 31
0.0
  0
LINE
  5
35
330
2D
100
AcDbEntity
  8
www.archlounge.com Layer 01
100
AcDbLine
 10
10.68540100329482
 20
0.8624367681022704
 30
0.0
 11
10.77321525965453
 21
0.9741214909263362
 31
0.0
  0
LINE
  5
36
330
2D
100
AcDbEntity
  8
www.archlounge.com Layer 01
100
AcDbLine
 10
10.77321525965453
 20
0.9741214909263362
 30
0.0
 11
10.84773658528138
 21
1.02463893825552
 31
0.0
  0
LINE
  5
37
330
2D
100
AcDbEntity
  8
www.archlounge.com Layer 01
100
AcDbLine
 10
10.84773658528138
 20
1.02463893825552
 30
0.0
 11
10.99941470453268
 21
1.059206820229519
 31
0.0
  0
LINE
  5
38
330
2D
100
AcDbEntity
  8
www.archlounge.com Layer 01
100
AcDbLine
 10
10.99941470453268
 20
1.059206820229519
 30
0.0
 11
11.24423581150768
 21
1.061869277271398
 31
0.0
  0
LINE
  5
39
330
2D
100
AcDbEntity
  8
www.archlounge.com Layer 01
100
AcDbLine
 10
11.24423581150768
 20
1.061869277271398
 30
0.0
 11
11.43052178696234
 21
1.043257254876152
 31
0.0
  0
LINE
  5
3A
330
2D
100
AcDbEntity
  8
www.archlounge.com Layer 01
100
AcDbLine
 10
11.43052178696234
 20
1.043257254876152
 30
0.0
 11
11.49704423600269
 21
1.003370753041963
 31
0.0
  0
LINE
  5
3B
330
2D
100
AcDbEntity
  8
www.archlounge.com Layer 01
100
AcDbLine
 10
11.49704423600269
 20
1.003370753041963
 30
0.0
 11
11.56623683025827
 21
0.9581656313475832
 31
0.0
  0
LINE
  5
3C
330
2D
100
AcDbEntity
  8
www.archlounge.com Layer 01
100
AcDbLine
 10
11.56623683025827
 20
0.9581656313475832
 30
0.0
 11
11.66203840413436
 21
0.838506125845015
 31
0.0
  0
LINE
  5
3D
330
2D
100
AcDbEntity
  8
www.archlounge.com Layer 01
100
AcDbLine
 10
11.66203840413436
 20
0.838506125845015
 30
0.0
 11
11.72856085317471
 21
0.7135280004840752
 31
0.0
  0
LINE
  5
3E
330
2D
100
AcDbEntity
  8
www.archlounge.com Layer 01
100
AcDbLine
 10
11.72856085317471
 20
0.7135280004840752
 30
0.0
 11
11.76049856415557
 21
0.6231240513207013
 31
0.0
  0
LINE
  5
3F
330
2D
100
AcDbEntity
  8
www.archlounge.com Layer 01
100
AcDbLine
 10
11.76049856415557
 20
0.6231240513207013
 30
0.0
 11
11.77646164011094
 21
0.460921881167451
 31
0.0
  0
LINE
  5
40
330
2D
100
AcDbEntity
  8
www.archlounge.com Layer 01
100
AcDbLine
 10
11.77646164011094
 20
0.460921881167451
 30
0.0
 11
11.78710754376879
 21
0.2854200142501213
 31
0.0
  0
LINE
  5
41
330
2D
100
AcDbEntity
  8
www.archlounge.com Layer 01
100
AcDbLine
 10
11.78710754376879
 20
0.2854200142501213
 30
0.0
 11
11.78444895762004
 21
0.2614893719946849
 31
0.0
  0
LINE
  5
42
330
2D
100
AcDbEntity
  8
www.archlounge.com Layer 01
100
AcDbLine
 10
11.78444895762004
 20
0.2614893719946849
 30
0.0
 11
12.19426423273034
 21
0.2774452315734379
 31
0.0
  0
LINE
  5
43
330
2D
100
AcDbEntity
  8
www.archlounge.com Layer 01
100
AcDbLine
 10
12.19426423273034
 20
0.2774452315734379
 30
0.0
 11
12.34594235198165
 21
0.304032036645367
 31
0.0
  0
LINE
  5
44
330
2D
100
AcDbEntity
  8
www.archlounge.com Layer 01
100
AcDbLine
 10
12.34594235198165
 20
0.304032036645367
 30
0.0
 11
12.41779353238962
 21
0.3545557781981188
 31
0.0
  0
LINE
  5
45
330
2D
100
AcDbEntity
  8
www.archlounge.com Layer 01
100
AcDbLine
 10
12.41779353238962
 20
0.3545557781981188
 30
0.0
 11
12.44440251200285
 21
0.4130543024311919
 31
0.0
  0
LINE
  5
46
330
2D
100
AcDbEntity
  8
www.archlounge.com Layer 01
100
AcDbLine
 10
12.44440251200285
 20
0.4130543024311919
 30
0.0
 11
12.46879215014269
 21
0.660788691839116
 31
0.0
  0
LINE
  5
47
330
2D
100
AcDbEntity
  8
www.archlounge.com Layer 01
100
AcDbLine
 10
12.46879215014269
 20
0.660788691839116
 30
0.0
 11
12.44999710198681
 21
1.109044491293389
 31
0.0
  0
LINE
  5
48
330
2D
100
AcDbEntity
  8
www.archlounge.com Layer 01
100
AcDbLine
 10
12.44999710198681
 20
1.109044491293389
 30
0.0
 11
12.43592971354155
 21
1.619241755877737
 31
0.0
  0
LINE
  5
49
330
2D
100
AcDbEntity
  8
www.archlounge.com Layer 01
100
AcDbLine
 10
12.43592971354155
 20
1.619241755877737
 30
0.0
 11
12.41714622445943
 21
1.832804799470977
 31
0.0
  0
LINE
  5
4A
330
2D
100
AcDbEntity
  8
www.archlounge.com Layer 01
100
AcDbLine
 10
12.41714622445943
 20
1.832804799470977
 30
0.0
 11
12.38896521129209
 21
1.940763341281126
 31
0.0
  0
LINE
  5
4B
330
2D
100
AcDbEntity
  8
www.archlounge.com Layer 01
100
AcDbLine
 10
12.38896521129209
 20
1.940763341281126
 30
0.0
 11
12.42320317724443
 21
2.002969163851958
 31
0.0
  0
LINE
  5
4C
330
2D
100
AcDbEntity
  8
www.archlounge.com Layer 01
100
AcDbLine
 10
12.42320317724443
 20
2.002969163851958
 30
0.0
 11
12.40014283218261
 21
2.149454654967485
 31
0.0
  0
LINE
  5
4D
330
2D
100
AcDbEntity
  8
www.archlounge.com Layer 01
100
AcDbLine
 10
12.40014283218261
 20
2.149454654967485
 30
0.0
 11
12.32602607401714
 21
2.169205932032127
 31
0.0
  0
LINE
  5
4E
330
2D
100
AcDbEntity
  8
www.archlounge.com Layer 01
100
AcDbLine
 10
12.32602607401714
 20
2.169205932032127
 30
0.0
 11
12.25848642679921
 21
2.172497811541688
 31
0.0
  0
LINE
  5
4F
330
2D
100
AcDbEntity
  8
www.archlounge.com Layer 01
100
AcDbLine
 10
12.25848642679921
 20
2.172497811541688
 30
0.0
 11
12.06408598406415
 21
2.646591403328784
 31
0.0
  0
LINE
  5
50
330
2D
100
AcDbEntity
  8
www.archlounge.com Layer 01
100
AcDbLine
 10
12.06408598406415
 20
2.646591403328784
 30
0.0
 11
12.10139866268946
 21
2.667305696770199
 31
0.0
  0
LINE
  5
51
330
2D
100
AcDbEntity
  8
www.archlounge.com Layer 01
100
AcDbLine
 10
12.10139866268946
 20
2.667305696770199
 30
0.0
 11
12.17602401994372
 21
2.675595190681633
 31
0.0
  0
LINE
  5
52
330
2D
100
AcDbEntity
  8
www.archlounge.com Layer 01
100
AcDbLine
 10
12.17602401994372
 20
2.675595190681633
 30
0.0
 11
12.22577425811323
 21
2.675595190681633
 31
0.0
  0
LINE
  5
53
330
2D
100
AcDbEntity
  8
www.archlounge.com Layer 01
100
AcDbLine
 10
12.22577425811323
 20
2.675595190681633
 30
0.0
 11
12.20711791880239
 21
2.652810097319161
 31
0.0
  0
LINE
  5
54
330
2D
100
AcDbEntity
  8
www.archlounge.com Layer 01
100
AcDbLine
 10
12.20711791880239
 20
2.652810097319161
 30
0.0
 11
12.06408598406415
 21
2.646591403328784
 31
0.0
  0
LINE
  5
55
330
2D
100
AcDbEntity
  8
www.archlounge.com Layer 01
100
AcDbLine
 10
12.40014283218261
 20
2.149454654967485
 30
0.0
 11
12.20711791880239
 21
2.652810097319161
 31
0.0
  0
LINE
  5
56
330
2D
100
AcDbEntity
  8
www.archlounge.com Layer 01
100
AcDbLine
 10
12.25848642679921
 20
2.172497811541688
 30
0.0
 11
12.17076464300407
 21
2.149605716358564
 31
0.0
  0
LINE
  5
57
330
2D
100
AcDbEntity
  8
www.archlounge.com Layer 01
100
AcDbLine
 10
12.17076464300407
 20
2.149605716358564
 30
0.0
 11
11.98779612069847
 21
2.634072190430742
 31
0.0
  0
LINE
  5
58
330
2D
100
AcDbEntity
  8
www.archlounge.com Layer 01
100
AcDbLine
 10
11.98779612069847
 20
2.634072190430742
 30
0.0
 11
12.06408598406415
 21
2.646591403328784
 31
0.0
  0
LINE
  5
59
330
2D
100
AcDbEntity
  8
www.archlounge.com Layer 01
100
AcDbLine
 10
12.22577425811323
 20
2.675595190681633
 30
0.0
 11
12.24298571365216
 21
2.688303230323072
 31
0.0
  0
LINE
  5
5A
330
2D
100
AcDbEntity
  8
www.archlounge.com Layer 01
100
AcDbLine
 10
12.24298571365216
 20
2.688303230323072
 30
0.0
 11
12.19421799644988
 21
2.770354743328425
 31
0.0
  0
LINE
  5
5B
330
2D
100
AcDbEntity
  8
www.archlounge.com Layer 01
100
AcDbLine
 10
12.19421799644988
 20
2.770354743328425
 30
0.0
 11
12.04794952205338
 21
2.76523124443338
 31
0.0
  0
LINE
  5
5C
330
2D
100
AcDbEntity
  8
www.archlounge.com Layer 01
100
AcDbLine
 10
12.04794952205338
 20
2.76523124443338
 30
0.0
 11
11.94143269009873
 21
2.766880331300853
 31
0.0
  0
LINE
  5
5D
330
2D
100
AcDbEntity
  8
www.archlounge.com Layer 01
100
AcDbLine
 10
11.94143269009873
 20
2.766880331300853
 30
0.0
 11
11.85423106445887
 21
2.737832484375758
 31
0.0
  0
LINE
  5
5E
330
2D
100
AcDbEntity
  8
www.archlounge.com Layer 01
100
AcDbLine
 10
11.85423106445887
 20
2.737832484375758
 30
0.0
 11
11.82031675247344
 21
2.699110414108872
 31
0.0
  0
LINE
  5
5F
330
2D
100
AcDbEntity
  8
www.archlounge.com Layer 01
100
AcDbLine
 10
11.82031675247344
 20
2.699110414108872
 30
0.0
 11
11.84938781404707
 21
2.607139202997132
 31
0.0
  0
LINE
  5
60
330
2D
100
AcDbEntity
  8
www.archlounge.com Layer 01
100
AcDbLine
 10
11.84938781404707
 20
2.607139202997132
 30
0.0
 11
11.92850964960962
 21
2.636180755700479
 31
0.0
  0
LINE
  5
61
330
2D
100
AcDbEntity
  8
www.archlounge.com Layer 01
100
AcDbLine
 10
11.92850964960962
 20
2.636180755700479
 30
0.0
 11
11.98779612069847
 21
2.634072190430742
 31
0.0
  0
LINE
  5
62
330
2D
100
AcDbEntity
  8
www.archlounge.com Layer 01
100
AcDbLine
 10
11.84938781404707
 20
2.607139202997132
 30
0.0
 11
11.87553092032612
 21
2.524431072753941
 31
0.0
  0
LINE
  5
63
330
2D
100
AcDbEntity
  8
www.archlounge.com Layer 01
100
AcDbLine
 10
11.87553092032612
 20
2.524431072753941
 30
0.0
 11
11.88759054107504
 21
2.417009557912024
 31
0.0
  0
LINE
  5
64
330
2D
100
AcDbEntity
  8
www.archlounge.com Layer 01
100
AcDbLine
 10
11.88759054107504
 20
2.417009557912024
 30
0.0
 11
11.90609661247799
 21
2.221378760452353
 31
0.0
  0
LINE
  5
65
330
2D
100
AcDbEntity
  8
www.archlounge.com Layer 01
100
AcDbLine
 10
11.90609661247799
 20
2.221378760452353
 30
0.0
 11
11.93821926858436
 21
2.086877473140702
 31
0.0
  0
LINE
  5
66
330
2D
100
AcDbEntity
  8
www.archlounge.com Layer 01
100
AcDbLine
 10
11.93821926858436
 20
2.086877473140702
 30
0.0
 11
11.95835516888474
 21
2.003925886005163
 31
0.0
  0
LINE
  5
67
330
2D
100
AcDbEntity
  8
www.archlounge.com Layer 01
100
AcDbLine
 10
11.95835516888474
 20
2.003925886005163
 30
0.0
 11
12.00237210822888
 21
1.992615164243034
 31
0.0
  0
LINE
  5
68
330
2D
100
AcDbEntity
  8
www.archlounge.com Layer 01
100
AcDbLine
 10
12.00237210822888
 20
1.992615164243034
 30
0.0
 11
12.05520861814148
 21
2.002667041067979
 31
0.0
  0
LINE
  5
69
330
2D
100
AcDbEntity
  8
www.archlounge.com Layer 01
100
AcDbLine
 10
12.05520861814148
 20
2.002667041067979
 30
0.0
 11
12.07533295937173
 21
2.024035933876803
 31
0.0
  0
LINE
  5
6A
330
2D
100
AcDbEntity
  8
www.archlounge.com Layer 01
100
AcDbLine
 10
12.07533295937173
 20
2.024035933876803
 30
0.0
 11
12.06023681368606
 21
2.176123284962159
 31
0.0
  0
LINE
  5
6B
330
2D
100
AcDbEntity
  8
www.archlounge.com Layer 01
100
AcDbLine
 10
12.06023681368606
 20
2.176123284962159
 30
0.0
 11
12.04263234975951
 21
2.378482608612102
 31
0.0
  0
LINE
  5
6C
330
2D
100
AcDbEntity
  8
www.archlounge.com Layer 01
100
AcDbLine
 10
12.04263234975951
 20
2.378482608612102
 30
0.0
 11
11.98779612069847
 21
2.634072190430742
 31
0.0
  0
LINE
  5
6D
330
2D
100
AcDbEntity
  8
www.archlounge.com Layer 01
100
AcDbLine
 10
11.90609661247799
 20
2.221378760452353
 30
0.0
 11
12.05517151982349
 21
2.234347690084177
 31
0.0
  0
LINE
  5
6E
330
2D
100
AcDbEntity
  8
www.archlounge.com Layer 01
100
AcDbLine
 10
12.17076464300407
 20
2.149605716358564
 30
0.0
 11
12.06023681368606
 21
2.176123284962159
 31
0.0
  0
LINE
  5
6F
330
2D
100
AcDbEntity
  8
www.archlounge.com Layer 01
100
AcDbLine
 10
12.38896521129209
 20
1.940763341281126
 30
0.0
 11
12.34561869801837
 21
1.992111626270343
 31
0.0
  0
LINE
  5
70
330
2D
100
AcDbEntity
  8
www.archlounge.com Layer 01
100
AcDbLine
 10
12.34561869801837
 20
1.992111626270343
 30
0.0
 11
12.29021607451796
 21
2.030078389574555
 31
0.0
  0
LINE
  5
71
330
2D
100
AcDbEntity
  8
www.archlounge.com Layer 01
100
AcDbLine
 10
12.29021607451796
 20
2.030078389574555
 30
0.0
 11
12.19998597248195
 21
2.034824234988263
 31
0.0
  0
LINE
  5
72
330
2D
100
AcDbEntity
  8
www.archlounge.com Layer 01
100
AcDbLine
 10
12.19998597248195
 20
2.034824234988263
 30
0.0
 11
12.07533295937173
 21
2.024035933876803
 31
0.0
  0
LINE
  5
73
330
2D
100
AcDbEntity
  8
www.archlounge.com Layer 01
100
AcDbLine
 10
12.19998597248195
 20
2.034824234988263
 30
0.0
 11
12.20630878388692
 21
1.911438548469959
 31
0.0
  0
LINE
  5
74
330
2D
100
AcDbEntity
  8
www.archlounge.com Layer 01
100
AcDbLine
 10
12.20630878388692
 20
1.911438548469959
 30
0.0
 11
12.23957578794216
 21
1.490380093886415
 31
0.0
  0
LINE
  5
75
330
2D
100
AcDbEntity
  8
www.archlounge.com Layer 01
100
AcDbLine
 10
12.23957578794216
 20
1.490380093886415
 30
0.0
 11
12.24179512942282
 21
1.090243642158384
 31
0.0
  0
LINE
  5
76
330
2D
100
AcDbEntity
  8
www.archlounge.com Layer 01
100
AcDbLine
 10
12.24179512942282
 20
1.090243642158384
 30
0.0
 11
12.45041863448568
 21
1.098991077949904
 31
0.0
  0
LINE
  5
77
330
2D
100
AcDbEntity
  8
www.archlounge.com Layer 01
100
AcDbLine
 10
12.24179512942282
 20
1.090243642158384
 30
0.0
 11
12.20568459409696
 21
0.6053680434815761
 31
0.0
  0
LINE
  5
78
330
2D
100
AcDbEntity
  8
www.archlounge.com Layer 01
100
AcDbLine
 10
12.20568459409696
 20
0.6053680434815761
 30
0.0
 11
11.76049856415557
 21
0.6231240513207013
 31
0.0
  0
LINE
  5
79
330
2D
100
AcDbEntity
  8
www.archlounge.com Layer 01
100
AcDbLine
 10
11.89501146415205
 20
0.3775737578744156
 30
0.0
 11
12.22356647570632
 21
0.3909741622319416
 31
0.0
  0
LINE
  5
7A
330
2D
100
AcDbEntity
  8
www.archlounge.com Layer 01
100
AcDbLine
 10
12.22356647570632
 20
0.3909741622319416
 30
0.0
 11
12.21238885481944
 21
0.5517727202804963
 31
0.0
  0
LINE
  5
7B
330
2D
100
AcDbEntity
  8
www.archlounge.com Layer 01
100
AcDbLine
 10
12.21238885481944
 20
0.5517727202804963
 30
0.0
 11
11.88160294271074
 21
0.5450693709917687
 31
0.0
  0
LINE
  5
7C
330
2D
100
AcDbEntity
  8
www.archlounge.com Layer 01
100
AcDbLine
 10
11.88160294271074
 20
0.5450693709917687
 30
0.0
 11
11.89501146415205
 21
0.3775737578744156
 31
0.0
  0
LINE
  5
7D
330
2D
100
AcDbEntity
  8
www.archlounge.com Layer 01
100
AcDbLine
 10
12.24179512942282
 20
1.090243642158384
 30
0.0
 11
11.84926066427215
 21
1.168562679922615
 31
0.0
  0
LINE
  5
7E
330
2D
100
AcDbEntity
  8
www.archlounge.com Layer 01
100
AcDbLine
 10
11.84926066427215
 20
1.168562679922615
 30
0.0
 11
11.43303010519594
 21
1.237547382479533
 31
0.0
  0
LINE
  5
7F
330
2D
100
AcDbEntity
  8
www.archlounge.com Layer 01
100
AcDbLine
 10
11.43303010519594
 20
1.237547382479533
 30
0.0
 11
11.14897751393437
 21
1.255290801869705
 31
0.0
  0
LINE
  5
80
330
2D
100
AcDbEntity
  8
www.archlounge.com Layer 01
100
AcDbLine
 10
11.14897751393437
 20
1.255290801869705
 30
0.0
 11
10.33150850984748
 21
1.241632334300447
 31
0.0
  0
LINE
  5
81
330
2D
100
AcDbEntity
  8
www.archlounge.com Layer 01
100
AcDbLine
 10
10.33150850984748
 20
1.241632334300447
 30
0.0
 11
10.34180764140183
 21
0.9626093539773137
 31
0.0
  0
LINE
  5
82
330
2D
100
AcDbEntity
  8
www.archlounge.com Layer 01
100
AcDbLine
 10
10.34180764140183
 20
0.9626093539773137
 30
0.0
 11
10.77321525965453
 21
0.9741214909263362
 31
0.0
  0
LINE
  5
83
330
2D
100
AcDbEntity
  8
www.archlounge.com Layer 01
100
AcDbLine
 10
10.34180764140183
 20
0.9626093539773137
 30
0.0
 11
9.989279118235572
 21
0.9526833616473595
 31
0.0
  0
LINE
  5
84
330
2D
100
AcDbEntity
  8
www.archlounge.com Layer 01
100
AcDbLine
 10
9.989279118235572
 20
0.9526833616473595
 30
0.0
 11
9.981823517951852
 21
1.24540257488843
 31
0.0
  0
LINE
  5
85
330
2D
100
AcDbEntity
  8
www.archlounge.com Layer 01
100
AcDbLine
 10
9.981823517951852
 20
1.24540257488843
 30
0.0
 11
10.33150850984748
 21
1.241632334300447
 31
0.0
  0
LINE
  5
86
330
2D
100
AcDbEntity
  8
www.archlounge.com Layer 01
100
AcDbLine
 10
9.981823517951852
 20
1.24540257488843
 30
0.0
 11
9.963710454936517
 21
2.283364285158313
 31
0.0
  0
LINE
  5
87
330
2D
100
AcDbEntity
  8
www.archlounge.com Layer 01
100
AcDbLine
 10
9.963710454936517
 20
2.283364285158313
 30
0.0
 11
10.00134678753238
 21
2.706506128115506
 31
0.0
  0
LINE
  5
88
330
2D
100
AcDbEntity
  8
www.archlounge.com Layer 01
100
AcDbLine
 10
10.00134678753238
 20
2.706506128115506
 30
0.0
 11
9.993047375122841
 21
2.827443361229597
 31
0.0
  0
LINE
  5
89
330
2D
100
AcDbEntity
  8
www.archlounge.com Layer 01
100
AcDbLine
 10
9.993047375122841
 20
2.827443361229597
 30
0.0
 11
9.985233443665492
 21
3.049931615423702
 31
0.0
  0
LINE
  5
8A
330
2D
100
AcDbEntity
  8
www.archlounge.com Layer 01
100
AcDbLine
 10
9.985233443665492
 20
3.049931615423702
 30
0.0
 11
10.0398731685309
 21
3.53667030460565
 31
0.0
  0
LINE
  5
8B
330
2D
100
AcDbEntity
  8
www.archlounge.com Layer 01
100
AcDbLine
 10
10.0398731685309
 20
3.53667030460565
 30
0.0
 11
10.04182665139524
 21
3.675237661063874
 31
0.0
  0
LINE
  5
8C
330
2D
100
AcDbEntity
  8
www.archlounge.com Layer 01
100
AcDbLine
 10
10.04182665139524
 20
3.675237661063874
 30
0.0
 11
10.31526801620566
 21
3.677188870718964
 31
0.0
  0
LINE
  5
8D
330
2D
100
AcDbEntity
  8
www.archlounge.com Layer 01
100
AcDbLine
 10
10.31526801620566
 20
3.677188870718964
 30
0.0
 11
10.51058162548724
 21
3.638158383440895
 31
0.0
  0
LINE
  5
8E
330
2D
100
AcDbEntity
  8
www.archlounge.com Layer 01
100
AcDbLine
 10
10.51058162548724
 20
3.638158383440895
 30
0.0
 11
10.6707441022736
 21
3.569847162923906
 31
0.0
  0
LINE
  5
8F
330
2D
100
AcDbEntity
  8
www.archlounge.com Layer 01
100
AcDbLine
 10
10.6707441022736
 20
3.569847162923906
 30
0.0
 11
10.78402299030131
 21
3.489828684494568
 31
0.0
  0
LINE
  5
90
330
2D
100
AcDbEntity
  8
www.archlounge.com Layer 01
100
AcDbLine
 10
10.78402299030131
 20
3.489828684494568
 30
0.0
 11
11.26357413596633
 21
3.489570621281018
 31
0.0
  0
LINE
  5
91
330
2D
100
AcDbEntity
  8
www.archlounge.com Layer 01
100
AcDbLine
 10
11.26357413596633
 20
3.489570621281018
 30
0.0
 11
11.55790274064202
 21
3.445618050302073
 31
0.0
  0
LINE
  5
92
330
2D
100
AcDbEntity
  8
www.archlounge.com Layer 01
100
AcDbLine
 10
11.55790274064202
 20
3.445618050302073
 30
0.0
 11
11.68717938183545
 21
3.360230598213092
 31
0.0
  0
LINE
  5
93
330
2D
100
AcDbEntity
  8
www.archlounge.com Layer 01
100
AcDbLine
 10
11.68717938183545
 20
3.360230598213092
 30
0.0
 11
11.77920113975051
 21
3.206972521336865
 31
0.0
  0
LINE
  5
94
330
2D
100
AcDbEntity
  8
www.archlounge.com Layer 01
100
AcDbLine
 10
11.77920113975051
 20
3.206972521336865
 30
0.0
 11
11.94739427664171
 21
2.926854457005902
 31
0.0
  0
LINE
  5
95
330
2D
100
AcDbEntity
  8
www.archlounge.com Layer 01
100
AcDbLine
 10
11.94739427664171
 20
2.926854457005902
 30
0.0
 11
12.04678205596428
 21
2.914303661893427
 31
0.0
  0
LINE
  5
96
330
2D
100
AcDbEntity
  8
www.archlounge.com Layer 01
100
AcDbLine
 10
12.04678205596428
 20
2.914303661893427
 30
0.0
 11
12.131914608035
 21
2.838930321278894
 31
0.0
  0
LINE
  5
97
330
2D
100
AcDbEntity
  8
www.archlounge.com Layer 01
100
AcDbLine
 10
12.131914608035
 20
2.838930321278894
 30
0.0
 11
12.19421799644988
 21
2.770354743328425
 31
0.0
  0
LINE
  5
98
330
2D
100
AcDbEntity
  8
www.archlounge.com Layer 01
100
AcDbLine
 10
11.94739427664171
 20
2.926854457005902
 30
0.0
 11
11.88945155137844
 21
2.907845787365658
 31
0.0
  0
LINE
  5
99
330
2D
100
AcDbEntity
  8
www.archlounge.com Layer 01
100
AcDbLine
 10
11.88945155137844
 20
2.907845787365658
 30
0.0
 11
11.871130425101
 21
2.876613844473467
 31
0.0
  0
LINE
  5
9A
330
2D
100
AcDbEntity
  8
www.archlounge.com Layer 01
100
AcDbLine
 10
11.871130425101
 20
2.876613844473467
 30
0.0
 11
11.8978318772788
 21
2.752356407838306
 31
0.0
  0
LINE
  5
9B
330
2D
100
AcDbEntity
  8
www.archlounge.com Layer 01
100
AcDbLine
 10
10.78402299030131
 20
3.489828684494568
 30
0.0
 11
10.41713810193323
 21
3.471248133220797
 31
0.0
  0
LINE
  5
9C
330
2D
100
AcDbEntity
  8
www.archlounge.com Layer 01
100
AcDbLine
 10
10.41713810193323
 20
3.471248133220797
 30
0.0
 11
10.03179253213966
 21
3.464686809575141
 31
0.0
  0
LINE
  5
9D
330
2D
100
AcDbEntity
  8
www.archlounge.com Layer 01
100
AcDbLine
 10
10.41713810193323
 20
3.471248133220797
 30
0.0
 11
10.39746456444482
 21
3.217836353143866
 31
0.0
  0
LINE
  5
9E
330
2D
100
AcDbEntity
  8
www.archlounge.com Layer 01
100
AcDbLine
 10
10.39746456444482
 20
3.217836353143866
 30
0.0
 11
10.36160832866517
 21
2.779726843884418
 31
0.0
  0
LINE
  5
9F
330
2D
100
AcDbEntity
  8
www.archlounge.com Layer 01
100
AcDbLine
 10
10.36160832866517
 20
2.779726843884418
 30
0.0
 11
10.32288544347102
 21
2.301995190229717
 31
0.0
  0
LINE
  5
A0
330
2D
100
AcDbEntity
  8
www.archlounge.com Layer 01
100
AcDbLine
 10
10.32288544347102
 20
2.301995190229717
 30
0.0
 11
10.32839911996052
 21
1.83908643570794
 31
0.0
  0
LINE
  5
A1
330
2D
100
AcDbEntity
  8
www.archlounge.com Layer 01
100
AcDbLine
 10
10.32839911996052
 20
1.83908643570794
 30
0.0
 11
10.33151362684293
 21
1.241493705212633
 31
0.0
  0
LINE
  5
A2
330
2D
100
AcDbEntity
  8
www.archlounge.com Layer 01
100
AcDbLine
 10
11.14897751393437
 20
1.255290801869705
 30
0.0
 11
11.12881849549376
 21
1.850648926454596
 31
0.0
  0
LINE
  5
A3
330
2D
100
AcDbEntity
  8
www.archlounge.com Layer 01
100
AcDbLine
 10
11.12881849549376
 20
1.850648926454596
 30
0.0
 11
11.11323686885589
 21
2.738323433901314
 31
0.0
  0
LINE
  5
A4
330
2D
100
AcDbEntity
  8
www.archlounge.com Layer 01
100
AcDbLine
 10
11.11323686885589
 20
2.738323433901314
 30
0.0
 11
11.31288512946776
 21
2.746040153366266
 31
0.0
  0
LINE
  5
A5
330
2D
100
AcDbEntity
  8
www.archlounge.com Layer 01
100
AcDbLine
 10
11.31288512946776
 20
2.746040153366266
 30
0.0
 11
11.8978318772788
 21
2.752356407838306
 31
0.0
  0
LINE
  5
A6
330
2D
100
AcDbEntity
  8
www.archlounge.com Layer 01
100
AcDbLine
 10
10.36160832866517
 20
2.779726843884418
 30
0.0
 11
10.96485308461342
 21
2.804406498877142
 31
0.0
  0
LINE
  5
A7
330
2D
100
AcDbEntity
  8
www.archlounge.com Layer 01
100
AcDbLine
 10
10.96485308461342
 20
2.804406498877142
 30
0.0
 11
11.47352152812891
 21
2.801970633923701
 31
0.0
  0
LINE
  5
A8
330
2D
100
AcDbEntity
  8
www.archlounge.com Layer 01
100
AcDbLine
 10
11.47352152812891
 20
2.801970633923701
 30
0.0
 11
11.88448115118808
 21
2.814485126156796
 31
0.0
  0
LINE
  5
A9
330
2D
100
AcDbEntity
  8
www.archlounge.com Layer 01
100
AcDbLine
 10
10.00134678753238
 20
2.706506128115506
 30
0.0
 11
10.35630342930744
 21
2.714279284171425
 31
0.0
  0
LWPOLYLINE
  5
AA
330
2D
100
AcDbEntity
  8
www.archlounge.com Layer 01
100
AcDbPolyline
 90
        4
 70
     1
 43
0.0
 10
11.21395104756811
 20
1.474952949181897
 10
11.40294184544837
 20
1.474952949181897
 10
11.40294184544837
 20
1.433750954389324
 10
11.21395104756811
 20
1.433750954389324
  0
LINE
  5
AB
330
2D
100
AcDbEntity
  8
www.archlounge.com Layer 01
100
AcDbLine
 10
11.83727390846616
 20
2.718471449241405
 30
0.0
 11
11.53296982620668
 21
2.705398344569402
 31
0.0
  0
LINE
  5
AC
330
2D
100
AcDbEntity
  8
www.archlounge.com Layer 01
100
AcDbLine
 10
11.53296982620668
 20
2.705398344569402
 30
0.0
 11
11.28622991357042
 21
2.693577790609197
 31
0.0
  0
LINE
  5
AD
330
2D
100
AcDbEntity
  8
www.archlounge.com Layer 01
100
AcDbLine
 10
11.28622991357042
 20
2.693577790609197
 30
0.0
 11
11.22539452707133
 21
2.666556684032912
 31
0.0
  0
LINE
  5
AE
330
2D
100
AcDbEntity
  8
www.archlounge.com Layer 01
100
AcDbLine
 10
11.22539452707133
 20
2.666556684032912
 30
0.0
 11
11.20173311035978
 21
2.600700211145522
 31
0.0
  0
LINE
  5
AF
330
2D
100
AcDbEntity
  8
www.archlounge.com Layer 01
100
AcDbLine
 10
11.20173311035978
 20
2.600700211145522
 30
0.0
 11
11.21187041492885
 21
2.195415083622719
 31
0.0
  0
LINE
  5
B0
330
2D
100
AcDbEntity
  8
www.archlounge.com Layer 01
100
AcDbLine
 10
11.21187041492885
 20
2.195415083622719
 30
0.0
 11
11.2238687298086
 21
2.128054291033549
 31
0.0
  0
LINE
  5
B1
330
2D
100
AcDbEntity
  8
www.archlounge.com Layer 01
100
AcDbLine
 10
11.2238687298086
 20
2.128054291033549
 30
0.0
 11
11.26890286733032
 21
2.073577776378442
 31
0.0
  0
LINE
  5
B2
330
2D
100
AcDbEntity
  8
www.archlounge.com Layer 01
100
AcDbLine
 10
11.26890286733032
 20
2.073577776378442
 30
0.0
 11
11.35305289843745
 21
2.056998788555574
 31
0.0
  0
LINE
  5
B3
330
2D
100
AcDbEntity
  8
www.archlounge.com Layer 01
100
AcDbLine
 10
11.35305289843745
 20
2.056998788555574
 30
0.0
 11
11.52135296064443
 21
2.053442551607076
 31
0.0
  0
LINE
  5
B4
330
2D
100
AcDbEntity
  8
www.archlounge.com Layer 01
100
AcDbLine
 10
11.52135296064443
 20
2.053442551607076
 30
0.0
 11
11.80342895090143
 21
2.066471596708652
 31
0.0
  0
LINE
  5
B5
330
2D
100
AcDbEntity
  8
www.archlounge.com Layer 01
100
AcDbLine
 10
11.80342895090143
 20
2.066471596708652
 30
0.0
 11
11.93821926858436
 21
2.086877473140702
 31
0.0
  0
LINE
  5
B6
330
2D
100
AcDbEntity
  8
www.archlounge.com Layer 01
100
AcDbLine
 10
10.58428225712851
 20
0.1923536080448684
 30
0.0
 11
8.34366052918267
 21
0.1794000936424709
 31
0.0
  0
LINE
  5
B7
330
2D
100
AcDbEntity
  8
www.archlounge.com Layer 01
100
AcDbLine
 10
8.34366052918267
 20
0.1794000936424709
 30
0.0
 11
8.309306972525519
 21
0.4758140167723468
 31
0.0
  0
LINE
  5
B8
330
2D
100
AcDbEntity
  8
www.archlounge.com Layer 01
100
AcDbLine
 10
8.309306972525519
 20
0.4758140167723468
 30
0.0
 11
8.283056324089557
 21
0.606941599651691
 31
0.0
  0
LINE
  5
B9
330
2D
100
AcDbEntity
  8
www.archlounge.com Layer 01
100
AcDbLine
 10
8.283056324089557
 20
0.606941599651691
 30
0.0
 11
8.194779704917891
 21
0.7785976952873171
 31
0.0
  0
LINE
  5
BA
330
2D
100
AcDbEntity
  8
www.archlounge.com Layer 01
100
AcDbLine
 10
8.194779704917891
 20
0.7785976952873171
 30
0.0
 11
8.123194383129884
 21
0.8668112542582093
 31
0.0
  0
LINE
  5
BB
330
2D
100
AcDbEntity
  8
www.archlounge.com Layer 01
100
AcDbLine
 10
8.123194383129884
 20
0.8668112542582093
 30
0.0
 11
9.099068885334418
 21
0.8835035381234774
 31
0.0
  0
LINE
  5
BC
330
2D
100
AcDbEntity
  8
www.archlounge.com Layer 01
100
AcDbLine
 10
9.099068885334418
 20
0.8835035381234774
 30
0.0
 11
9.997335790169017
 21
0.8952989151857764
 31
0.0
  0
LINE
  5
BD
330
2D
100
AcDbEntity
  8
www.archlounge.com Layer 01
100
AcDbLine
 10
9.997335790169017
 20
0.8952989151857764
 30
0.0
 11
9.989279118235572
 21
0.9526833616473595
 31
0.0
  0
LINE
  5
BE
330
2D
100
AcDbEntity
  8
www.archlounge.com Layer 01
100
AcDbLine
 10
9.700429512839036
 20
1.149906597953304
 30
0.0
 11
9.652424694271758
 21
3.848517666665429
 31
0.0
  0
LINE
  5
BF
330
2D
100
AcDbEntity
  8
www.archlounge.com Layer 01
100
AcDbLine
 10
9.652424694271758
 20
3.848517666665429
 30
0.0
 11
-2.777459625562187
 21
3.848517666665429
 31
0.0
  0
LINE
  5
C0
330
2D
100
AcDbEntity
  8
www.archlounge.com Layer 01
100
AcDbLine
 10
-2.777459625562187
 20
3.848517666665429
 30
0.0
 11
-2.786001778440549
 21
1.068566332336558
 31
0.0
  0
LINE
  5
C1
330
2D
100
AcDbEntity
  8
www.archlounge.com Layer 01
100
AcDbLine
 10
-2.786001778440549
 20
1.068566332336558
 30
0.0
 11
9.700429512839036
 21
1.149906597953304
 31
0.0
  0
CIRCLE
  5
C2
330
2D
100
AcDbEntity
  8
www.archlounge.com Layer 01
100
AcDbCircle
 10
7.658982123630266
 20
0.4509077696930035
 30
0.0
 40
0.308384434044402
  0
CIRCLE
  5
C3
330
2D
100
AcDbEntity
  8
www.archlounge.com Layer 01
100
AcDbCircle
 10
7.658982123630266
 20
0.4509077696930035
 30
0.0
 40
0.4509077696932791
  0
CIRCLE
  5
C4
330
2D
100
AcDbEntity
  8
www.archlounge.com Layer 01
100
AcDbCircle
 10
2.221953829557605
 20
0.4509077696930035
 30
0.0
 40
0.308384434044402
  0
CIRCLE
  5
C5
330
2D
100
AcDbEntity
  8
www.archlounge.com Layer 01
100
AcDbCircle
 10
2.221953829557605
 20
0.4509077696930035
 30
0.0
 40
0.4509077696932791
  0
CIRCLE
  5
C6
330
2D
100
AcDbEntity
  8
www.archlounge.com Layer 01
100
AcDbCircle
 10
1.110976914776983
 20
0.4509077696930035
 30
0.0
 40
0.308384434044402
  0
CIRCLE
  5
C7
330
2D
100
AcDbEntity
  8
www.archlounge.com Layer 01
100
AcDbCircle
 10
1.110976914776983
 20
0.4509077696930035
 30
0.0
 40
0.4509077696932791
  0
CIRCLE
  5
C8
330
2D
100
AcDbEntity
  8
www.archlounge.com Layer 01
100
AcDbCircle
 10
0.0
 20
0.4509077696930035
 30
0.0
 40
0.308384434044402
  0
CIRCLE
  5
C9
330
2D
100
AcDbEntity
  8
www.archlounge.com Layer 01
100
AcDbCircle
 10
0.0
 20
0.4509077696930035
 30
0.0
 40
0.4509077696932791
  0
LINE
  5
CA
330
2D
100
AcDbEntity
  8
www.archlounge.com Layer 01
100
AcDbLine
 10
-2.384215138565195
 20
0.4271899557315919
 30
0.0
 11
-2.384215138565195
 21
0.5505177611194086
 31
0.0
  0
LINE
  5
CB
330
2D
100
AcDbEntity
  8
www.archlounge.com Layer 01
100
AcDbLine
 10
-2.384215138565195
 20
0.5505177611194086
 30
0.0
 11
-2.437140890709997
 21
0.5505177611194086
 31
0.0
  0
LINE
  5
CC
330
2D
100
AcDbEntity
  8
www.archlounge.com Layer 01
100
AcDbLine
 10
-2.437140890709997
 20
0.5505177611194086
 30
0.0
 11
-2.437140890709997
 21
0.7756673187686829
 31
0.0
  0
LINE
  5
CD
330
2D
100
AcDbEntity
  8
www.archlounge.com Layer 01
100
AcDbLine
 10
-2.437140890709997
 20
0.7756673187686829
 30
0.0
 11
-2.482022020994918
 21
0.80770296711853
 31
0.0
  0
LINE
  5
CE
330
2D
100
AcDbEntity
  8
www.archlounge.com Layer 01
100
AcDbLine
 10
-2.482022020994918
 20
0.80770296711853
 30
0.0
 11
-2.483734188288508
 21
1.070535391832891
 31
0.0
  0
LINE
  5
CF
330
2D
100
AcDbEntity
  8
www.archlounge.com Layer 01
100
AcDbLine
 10
-2.384215138565195
 20
0.4271899557315919
 30
0.0
 11
-2.215948464679968
 21
0.4265102209537873
 31
0.0
  0
LINE
  5
D0
330
2D
100
AcDbEntity
  8
www.archlounge.com Layer 01
100
AcDbLine
 10
-2.215948464679968
 20
0.4265102209537873
 30
0.0
 11
-2.225565024142269
 21
0.5642509211793368
 31
0.0
  0
LINE
  5
D1
330
2D
100
AcDbEntity
  8
www.archlounge.com Layer 01
100
AcDbLine
 10
-2.225565024142269
 20
0.5642509211793368
 30
0.0
 11
-2.164652441962971
 21
0.6699622668929806
 31
0.0
  0
LINE
  5
D2
330
2D
100
AcDbEntity
  8
www.archlounge.com Layer 01
100
AcDbLine
 10
-2.164652441962971
 20
0.6699622668929806
 30
0.0
 11
-2.167865667361184
 21
0.7852780132725457
 31
0.0
  0
LINE
  5
D3
330
2D
100
AcDbEntity
  8
www.archlounge.com Layer 01
100
AcDbLine
 10
-2.167865667361184
 20
0.7852780132725457
 30
0.0
 11
-1.093931765895831
 21
0.7948887077782274
 31
0.0
  0
LINE
  5
D4
330
2D
100
AcDbEntity
  8
www.archlounge.com Layer 01
100
AcDbLine
 10
-1.093931765895831
 20
0.7948887077782274
 30
0.0
 11
-0.6258873441074684
 21
0.8012958374492882
 31
0.0
  0
LINE
  5
D5
330
2D
100
AcDbEntity
  8
www.archlounge.com Layer 01
100
AcDbLine
 10
-0.6258873441074684
 20
0.8012958374492882
 30
0.0
 11
-0.6277200111471757
 21
1.082626011051615
 31
0.0
  0
LINE
  5
D6
330
2D
100
AcDbEntity
  8
www.archlounge.com Layer 01
100
AcDbLine
 10
-0.6258873441074684
 20
0.8012958374492882
 30
0.0
 11
-0.5778045467886841
 21
0.43612091545765
 31
0.0
  0
LINE
  5
D7
330
2D
100
AcDbEntity
  8
www.archlounge.com Layer 01
100
AcDbLine
 10
-0.5778045467886841
 20
0.43612091545765
 30
0.0
 11
-0.571389654360246
 21
0.2567338723783905
 31
0.0
  0
LINE
  5
D8
330
2D
100
AcDbEntity
  8
www.archlounge.com Layer 01
100
AcDbLine
 10
-0.571389654360246
 20
0.2567338723783905
 30
0.0
 11
-0.5008605127113697
 21
0.2535366013835301
 31
0.0
  0
LINE
  5
D9
330
2D
100
AcDbEntity
  8
www.archlounge.com Layer 01
100
AcDbLine
 10
-0.5008605127113697
 20
0.2535366013835301
 30
0.0
 11
-0.5040737381132204
 21
0.5450295321679733
 31
0.0
  0
LINE
  5
DA
330
2D
100
AcDbEntity
  8
www.archlounge.com Layer 01
100
AcDbLine
 10
-0.5040737381132204
 20
0.5450295321679733
 30
0.0
 11
-0.4591926078282996
 21
0.7468352352516377
 31
0.0
  0
LINE
  5
DB
330
2D
100
AcDbEntity
  8
www.archlounge.com Layer 01
100
AcDbLine
 10
-0.4591926078282996
 20
0.7468352352516377
 30
0.0
 11
-0.2764664196511148
 21
0.9037973244885506
 31
0.0
  0
LINE
  5
DC
330
2D
100
AcDbEntity
  8
www.archlounge.com Layer 01
100
AcDbLine
 10
-0.2764664196511148
 20
0.9037973244885506
 30
0.0
 11
-0.0060469181917142
 21
0.9615055484009644
 31
0.0
  0
LINE
  5
DD
330
2D
100
AcDbEntity
  8
www.archlounge.com Layer 01
100
AcDbLine
 10
-0.0060469181917142
 20
0.9615055484009644
 30
0.0
 11
0.2375918521684071
 21
0.9550984187317226
 31
0.0
  0
LINE
  5
DE
330
2D
100
AcDbEntity
  8
www.archlounge.com Layer 01
100
AcDbLine
 10
0.2375918521684071
 20
0.9550984187317226
 30
0.0
 11
2.438373848875926
 21
0.9550984187317226
 31
0.0
  0
LINE
  5
DF
330
2D
100
AcDbEntity
  8
www.archlounge.com Layer 01
100
AcDbLine
 10
2.438373848875926
 20
0.9550984187317226
 30
0.0
 11
2.637686290458077
 21
0.9165738207848335
 31
0.0
  0
LINE
  5
E0
330
2D
100
AcDbEntity
  8
www.archlounge.com Layer 01
100
AcDbLine
 10
2.637686290458077
 20
0.9165738207848335
 30
0.0
 11
2.699939642949175
 21
0.7356321990919242
 31
0.0
  0
LINE
  5
E1
330
2D
100
AcDbEntity
  8
www.archlounge.com Layer 01
100
AcDbLine
 10
2.699939642949175
 20
0.7356321990919242
 30
0.0
 11
2.725402720472629
 21
0.4387706223260466
 31
0.0
  0
LINE
  5
E2
330
2D
100
AcDbEntity
  8
www.archlounge.com Layer 01
100
AcDbLine
 10
2.725402720472629
 20
0.4387706223260466
 30
0.0
 11
2.815939391479332
 21
0.4387706223260466
 31
0.0
  0
LINE
  5
E3
330
2D
100
AcDbEntity
  8
www.archlounge.com Layer 01
100
AcDbLine
 10
2.815939391479332
 20
0.4387706223260466
 30
0.0
 11
2.811599178185133
 21
1.105030742224698
 31
0.0
  0
LINE
  5
E4
330
2D
100
AcDbEntity
  8
www.archlounge.com Layer 01
100
AcDbLine
 10
2.815939391479332
 20
0.4387706223260466
 30
0.0
 11
3.065542278043722
 21
0.4844135539242416
 31
0.0
  0
LINE
  5
E5
330
2D
100
AcDbEntity
  8
www.archlounge.com Layer 01
100
AcDbLine
 10
3.065542278043722
 20
0.4844135539242416
 30
0.0
 11
3.368209617128741
 21
0.4595088269070402
 31
0.0
  0
LINE
  5
E6
330
2D
100
AcDbEntity
  8
www.archlounge.com Layer 01
100
AcDbLine
 10
3.368209617128741
 20
0.4595088269070402
 30
0.0
 11
3.724299718040128
 21
0.4417161397013843
 31
0.0
  0
LINE
  5
E7
330
2D
100
AcDbEntity
  8
www.archlounge.com Layer 01
100
AcDbLine
 10
3.724299718040128
 20
0.4417161397013843
 30
0.0
 11
4.18720066752212
 21
0.4417161397013843
 31
0.0
  0
LINE
  5
E8
330
2D
100
AcDbEntity
  8
www.archlounge.com Layer 01
100
AcDbLine
 10
4.18720066752212
 20
0.4417161397013843
 30
0.0
 11
4.765754614589241
 21
0.473638498919172
 31
0.0
  0
LINE
  5
E9
330
2D
100
AcDbEntity
  8
www.archlounge.com Layer 01
100
AcDbLine
 10
4.765754614589241
 20
0.473638498919172
 30
0.0
 11
5.136084620862675
 21
0.4558458117116971
 31
0.0
  0
LINE
  5
EA
330
2D
100
AcDbEntity
  8
www.archlounge.com Layer 01
100
AcDbLine
 10
5.136084620862675
 20
0.4558458117116971
 30
0.0
 11
5.4494318889665
 21
0.4487274780622102
 31
0.0
  0
LINE
  5
EB
330
2D
100
AcDbEntity
  8
www.archlounge.com Layer 01
100
AcDbLine
 10
5.4494318889665
 20
0.4487274780622102
 30
0.0
 11
5.822250913890457
 21
0.4753409364129766
 31
0.0
  0
LINE
  5
EC
330
2D
100
AcDbEntity
  8
www.archlounge.com Layer 01
100
AcDbLine
 10
6.040445753224048
 20
0.473638498919172
 30
0.0
 11
6.154480579752998
 21
0.473638498919172
 31
0.0
  0
LINE
  5
ED
330
2D
100
AcDbEntity
  8
www.archlounge.com Layer 01
100
AcDbLine
 10
6.154480579752998
 20
0.473638498919172
 30
0.0
 11
6.314725748507044
 21
0.4878688723802043
 31
0.0
  0
LINE
  5
EE
330
2D
100
AcDbEntity
  8
www.archlounge.com Layer 01
100
AcDbLine
 10
6.314725748507044
 20
0.4878688723802043
 30
0.0
 11
6.314725748507044
 21
0.4878688723802043
 31
0.0
  0
LINE
  5
EF
330
2D
100
AcDbEntity
  8
www.archlounge.com Layer 01
100
AcDbLine
 10
6.314725748507044
 20
0.4878688723802043
 30
0.0
 11
6.337819361262518
 21
0.7270851636367297
 31
0.0
  0
LINE
  5
F0
330
2D
100
AcDbEntity
  8
www.archlounge.com Layer 01
100
AcDbLine
 10
6.337819361262518
 20
0.7270851636367297
 30
0.0
 11
6.397749482435756
 21
0.8817940579592686
 31
0.0
  0
LINE
  5
F1
330
2D
100
AcDbEntity
  8
www.archlounge.com Layer 01
100
AcDbLine
 10
6.397749482435756
 20
0.8817940579592686
 30
0.0
 11
6.605025637320068
 21
0.9741184048452851
 31
0.0
  0
LINE
  5
F2
330
2D
100
AcDbEntity
  8
www.archlounge.com Layer 01
100
AcDbLine
 10
6.605025637320068
 20
0.9741184048452851
 30
0.0
 11
6.874716961803642
 21
1.006556858988915
 31
0.0
  0
LINE
  5
F3
330
2D
100
AcDbEntity
  8
www.archlounge.com Layer 01
100
AcDbLine
 10
6.874716961803642
 20
1.006556858988915
 30
0.0
 11
6.873903086168866
 21
1.131493778071671
 31
0.0
  0
LINE
  5
F4
330
2D
100
AcDbEntity
  8
www.archlounge.com Layer 01
100
AcDbLine
 10
6.326272554881143
 20
0.6074770180093765
 30
0.0
 11
7.03995534412752
 21
0.6197751824256557
 31
0.0
  0
LINE
  5
F5
330
2D
100
AcDbEntity
  8
www.archlounge.com Layer 01
100
AcDbLine
 10
7.03995534412752
 20
0.6197751824256557
 30
0.0
 11
7.024247526445833
 21
0.3183002205423691
 31
0.0
  0
LINE
  5
F6
330
2D
100
AcDbEntity
  8
www.archlounge.com Layer 01
100
AcDbLine
 10
7.024247526445833
 20
0.3183002205423691
 30
0.0
 11
7.080814163484319
 21
0.3151595941144478
 31
0.0
  0
LINE
  5
F7
330
2D
100
AcDbEntity
  8
www.archlounge.com Layer 01
100
AcDbLine
 10
7.080814163484319
 20
0.3151595941144478
 30
0.0
 11
7.178239619879605
 21
0.7108470550429047
 31
0.0
  0
LINE
  5
F8
330
2D
100
AcDbEntity
  8
www.archlounge.com Layer 01
100
AcDbLine
 10
7.178239619879605
 20
0.7108470550429047
 30
0.0
 11
7.347951089355774
 21
0.9149688914458238
 31
0.0
  0
LINE
  5
F9
330
2D
100
AcDbEntity
  8
www.archlounge.com Layer 01
100
AcDbLine
 10
7.347951089355774
 20
0.9149688914458238
 30
0.0
 11
7.722962233350699
 21
0.987392114544491
 31
0.0
  0
LINE
  5
FA
330
2D
100
AcDbEntity
  8
www.archlounge.com Layer 01
100
AcDbLine
 10
7.722962233350699
 20
0.987392114544491
 30
0.0
 11
7.949240339868993
 21
0.9654077295363094
 31
0.0
  0
LINE
  5
FB
330
2D
100
AcDbEntity
  8
www.archlounge.com Layer 01
100
AcDbLine
 10
7.949240339868993
 20
0.9654077295363094
 30
0.0
 11
8.123194383129884
 21
0.8668112542582093
 31
0.0
  0
LINE
  5
FC
330
2D
100
AcDbEntity
  8
www.archlounge.com Layer 01
100
AcDbLine
 10
7.03995534412752
 20
0.6197751824256557
 30
0.0
 11
7.11325849331115
 21
0.7958264900189534
 31
0.0
  0
LINE
  5
FD
330
2D
100
AcDbEntity
  8
www.archlounge.com Layer 01
100
AcDbLine
 10
7.11325849331115
 20
0.7958264900189534
 30
0.0
 11
7.245255018642637
 21
0.9183046269317856
 31
0.0
  0
LINE
  5
FE
330
2D
100
AcDbEntity
  8
www.archlounge.com Layer 01
100
AcDbLine
 10
7.245255018642637
 20
0.9183046269317856
 30
0.0
 11
7.537531387828494
 21
1.021939005269814
 31
0.0
  0
LINE
  5
FF
330
2D
100
AcDbEntity
  8
www.archlounge.com Layer 01
100
AcDbLine
 10
7.537531387828494
 20
1.021939005269814
 30
0.0
 11
7.536789585734368
 21
1.135812014619659
 31
0.0
  0
LINE
  5
100
330
2D
100
AcDbEntity
  8
www.archlounge.com Layer 01
100
AcDbLine
 10
2.999798299402755
 20
0.7986272490579723
 30
0.0
 11
5.390611370803526
 21
0.8256718818611261
 31
0.0
  0
LINE
  5
101
330
2D
100
AcDbEntity
  8
www.archlounge.com Layer 01
100
AcDbLine
 10
5.390611370803526
 20
0.8256718818611261
 30
0.0
 11
5.38208305261287
 21
0.4502574466860097
 31
0.0
  0
LINE
  5
102
330
2D
100
AcDbEntity
  8
www.archlounge.com Layer 01
100
AcDbLine
 10
2.999798299402755
 20
0.7986272490579723
 30
0.0
 11
2.9977943960439
 21
1.10624367233504
 31
0.0
  0
LINE
  5
103
330
2D
100
AcDbEntity
  8
www.archlounge.com Layer 01
100
AcDbLine
 10
5.390611370803526
 20
0.8256718818611261
 30
0.0
 11
5.796598932302003
 21
0.8346909553565637
 31
0.0
  0
LINE
  5
104
330
2D
100
AcDbEntity
  8
www.archlounge.com Layer 01
100
AcDbLine
 10
5.796598932302003
 20
0.8346909553565637
 30
0.0
 11
5.822250913890457
 21
0.4753409364129766
 31
0.0
  0
LINE
  5
105
330
2D
100
AcDbEntity
  8
www.archlounge.com Layer 01
100
AcDbLine
 10
5.796598932302003
 20
0.8346909553565637
 30
0.0
 11
6.040445753224048
 21
0.8222039757238235
 31
0.0
  0
LINE
  5
106
330
2D
100
AcDbEntity
  8
www.archlounge.com Layer 01
100
AcDbLine
 10
6.040445753224048
 20
0.8222039757238235
 30
0.0
 11
6.040445753224048
 21
0.473638498919172
 31
0.0
  0
LINE
  5
107
330
2D
100
AcDbEntity
  8
www.archlounge.com Layer 01
100
AcDbLine
 10
9.700429512839036
 20
1.149906597953304
 30
0.0
 11
9.984071807408327
 21
1.157131007819771
 31
0.0
  0
LINE
  5
108
330
2D
100
AcDbEntity
  8
www.archlounge.com Layer 01
100
AcDbLine
 10
9.977480354216822
 20
1.494285806460538
 30
0.0
 11
9.921640607681183
 21
1.528102249203584
 31
0.0
  0
LINE
  5
109
330
2D
100
AcDbEntity
  8
www.archlounge.com Layer 01
100
AcDbLine
 10
9.921640607681183
 20
1.528102249203584
 30
0.0
 11
9.78456996022578
 21
1.504619930148692
 31
0.0
  0
LINE
  5
10A
330
2D
100
AcDbEntity
  8
www.archlounge.com Layer 01
100
AcDbLine
 10
9.78456996022578
 20
1.504619930148692
 30
0.0
 11
9.694190989452181
 21
1.500607814341492
 31
0.0
  0
LINE
  5
10B
330
2D
100
AcDbEntity
  8
www.archlounge.com Layer 01
100
AcDbLine
 10
-2.167865667361184
 20
0.7852780132725457
 30
0.0
 11
-2.169737242136761
 21
1.072580859779918
 31
0.0
  0
LINE
  5
10C
330
2D
100
AcDbEntity
  8
www.archlounge.com Layer 01
100
AcDbLine
 10
-2.437140890709997
 20
0.7756673187686829
 30
0.0
 11
-2.167865667361184
 21
0.7852780132725457
 31
0.0
  0
LINE
  5
10D
330
2D
100
AcDbEntity
  8
www.archlounge.com Layer 01
100
AcDbLine
 10
8.524685086820682
 20
1.142247454865355
 30
0.0
 11
8.524685086820682
 21
0.9633811128824163
 31
0.0
  0
LINE
  5
10E
330
2D
100
AcDbEntity
  8
www.archlounge.com Layer 01
100
AcDbLine
 10
8.524685086820682
 20
0.9633811128824163
 30
0.0
 11
9.988057314156321
 21
1.000653413097097
 31
0.0
  0
LINE
  5
10F
330
2D
100
AcDbEntity
  8
www.archlounge.com Layer 01
100
AcDbLine
 10
8.524685086820682
 20
0.9633811128824163
 30
0.0
 11
8.526218992701615
 21
0.8737049697647307
 31
0.0
  0
ENDBLK
  5
110
330
2D
100
AcDbEntity
  8
0
100
AcDbBlockEnd
  0
ENDSEC
  0
SECTION
  2
ENTITIES
  0
INSERT
  5
2C
330
2
100
AcDbEntity
  8
www.archlounge.com Layer 01
100
AcDbBlockReference
  2
www.archlounge.com_fahr.0054.dxf
 10
-27121.94211744196
 20
-11722.09675876793
 30
0.0
  0
ENDSEC
  0
SECTION
  2
OBJECTS
  0
DICTIONARY
  5
9
330
0
100
AcDbDictionary
281
     1
  3
ACAD_COLOR
350
28
  3
ACAD_GROUP
350
24
  3
ACAD_LAYOUT
350
D
  3
ACAD_MATERIAL
350
27
  3
ACAD_MLINESTYLE
350
25
  3
ACAD_PLOTSETTINGS
350
26
  3
ACAD_PLOTSTYLENAME
350
8
  0
DICTIONARY
  5
13
330
12
100
AcDbDictionary
280
     1
281
     1
  3
ACAD_LAYERFILTERS
360
14
  3
ACAD_LAYERSTATES
360
15
  0
DICTIONARY
  5
3
330
2
100
AcDbDictionary
280
     1
281
     1
  3
ACAD_SORTENTS
360
4
  0
DICTIONARY
  5
28
102
{ACAD_REACTORS
330
9
102
}
330
9
100
AcDbDictionary
281
     1
  0
DICTIONARY
  5
24
102
{ACAD_REACTORS
330
9
102
}
330
9
100
AcDbDictionary
281
     1
  0
DICTIONARY
  5
D
102
{ACAD_REACTORS
330
9
102
}
330
9
100
AcDbDictionary
281
     1
  3
Layout1
350
11
  3
Model
350
C
  0
DICTIONARY
  5
27
102
{ACAD_REACTORS
330
9
102
}
330
9
100
AcDbDictionary
281
     1
  0
DICTIONARY
  5
25
102
{ACAD_REACTORS
330
9
102
}
330
9
100
AcDbDictionary
281
     1
  3
Standard
350
2A
  0
DICTIONARY
  5
26
102
{ACAD_REACTORS
330
9
102
}
330
9
100
AcDbDictionary
281
     1
  0
ACDBDICTIONARYWDFLT
  5
8
102
{ACAD_REACTORS
330
9
102
}
330
9
100
AcDbDictionary
281
     1
  3
Normal
350
7
100
AcDbDictionaryWithDefault
340
7
  0
DICTIONARY
  5
14
102
{ACAD_REACTORS
330
13
102
}
330
13
100
AcDbDictionary
281
     1
  0
DICTIONARY
  5
15
102
{ACAD_REACTORS
330
13
102
}
330
13
100
AcDbDictionary
281
     1
  0
SORTENTSTABLE
  5
4
102
{ACAD_REACTORS
330
3
102
}
330
3
100
AcDbSortentsTable
330
2
  0
LAYOUT
  5
11
102
{ACAD_REACTORS
330
D
102
}
330
D
100
AcDbPlotSettings
  1

  2
none_device
  4
Letter_(8.50_x_11.00_Inches)
  6

 40
6.349999904632568
 41
6.349999904632568
 42
6.350006103515625
 43
6.350006103515625
 44
215.8999938964844
 45
279.3999938964844
 46
0.0
 47
0.0
 48
0.0
 49
0.0
140
0.0
141
0.0
142
1.0
143
1.0
 70
   688
 72
     1
 73
     1
 74
     5
  7
pg_autos.ctb
 75
    16
147
1.0
 76
     0
 77
     2
 78
   300
148
0.0
149
0.0
100
AcDbLayout
  1
Layout1
 70
     1
 71
     1
 10
-6.350006103515625
 20
-6.349999904632568
 11
273.0499877929688
 21
209.5499939918518
 12
0.0
 22
0.0
 32
0.0
 14
26.66999878883363
 24
20.31999878883363
 34
0.0
 15
240.0299890995026
 25
182.8799890995025
 35
0.0
146
0.0
 13
0.0
 23
0.0
 33
0.0
 16
1.0
 26
0.0
 36
0.0
 17
0.0
 27
1.0
 37
0.0
 76
     0
330
E
  0
LAYOUT
  5
C
102
{ACAD_REACTORS
330
D
102
}
330
D
100
AcDbPlotSettings
  1

  2
Adobe PDF
  4
A4
  6

 40
3.174999952316284
 41
3.174999952316284
 42
3.175003051757812
 43
3.17498779296875
 44
209.9098358154297
 45
297.0318298339844
 46
87.21999999999999
 47
21.92
 48
-27336.51956575561
 49
-6883.626163327739
140
-25386.5195657556
141
-6653.626163327739
142
1.0
143
7.9
 70
 11940
 72
     1
 73
     1
 74
     4
  7
pg_autos.ctb
 75
     0
147
0.1265822784810126
 76
     0
 77
     2
 78
   300
148
27336.51956575561
149
6883.626163327739
100
AcDbLayout
  1
Model
 70
     1
 71
     0
 10
0.0
 20
0.0
 11
12.0
 21
9.0
 12
0.0
 22
0.0
 32
0.0
 14
0.0
 24
0.0
 34
0.0
 15
0.0
 25
0.0
 35
0.0
146
0.0
 13
0.0
 23
0.0
 33
0.0
 16
1.0
 26
0.0
 36
0.0
 17
0.0
 27
1.0
 37
0.0
 76
     0
330
2
  0
MLINESTYLE
  5
2A
102
{ACAD_REACTORS
330
25
102
}
330
25
100
AcDbMlineStyle
  2
STANDARD
 70
     0
  3

 62
   256
 51
90.0
 52
90.0
 71
     2
 49
0.5
 62
   256
  6
BYLAYER
 49
-0.5
 62
   256
  6
BYLAYER
  0
ACDBPLACEHOLDER
  5
7
102
{ACAD_REACTORS
330
8
102
}
330
8
  0
ENDSEC
  0
EOF
